ISO-10303-21;
HEADER;
FILE_DESCRIPTION (( 'STEP AP203' ),
    '1' );
FILE_NAME ('Q-QZWP-R4-20-248-M.STEP',
    '2020-12-23T01:25:22',
    ( '' ),
    ( '' ),
    'SwSTEP 2.0',
    'SolidWorks 2020',
    '' );
FILE_SCHEMA (( 'CONFIG_CONTROL_DESIGN' ));
ENDSEC;

DATA;
#1 = ORIENTED_EDGE ( 'NONE', *, *, #177, .F. ) ;
#2 = DIRECTION ( 'NONE',  ( 0.000000000000000000, 0.000000000000000000, 1.000000000000000000 ) ) ;
#3 = CC_DESIGN_PERSON_AND_ORGANIZATION_ASSIGNMENT ( #18, #172, ( #196 ) ) ;
#4 = CARTESIAN_POINT ( 'NONE',  ( -1.614212418857619014, 0.000000000000000000, 10.00000000000000000 ) ) ;
#5 = PLANE ( 'NONE',  #139 ) ;
#6 = CIRCLE ( 'NONE', #250, 10.00000000000000000 ) ;
#7 = DIRECTION ( 'NONE',  ( 0.000000000000000000, 0.000000000000000000, 1.000000000000000000 ) ) ;
#8 = DIRECTION ( 'NONE',  ( 1.000000000000000000, 0.000000000000000000, 0.000000000000000000 ) ) ;
#9 = CYLINDRICAL_SURFACE ( 'NONE', #85, 10.00000000000000000 ) ;
#10 = COORDINATED_UNIVERSAL_TIME_OFFSET ( 8, 0, .AHEAD. ) ;
#11 = AXIS2_PLACEMENT_3D ( 'NONE', #266, #239, #7 ) ;
#12 = AXIS2_PLACEMENT_3D ( 'NONE', #25, #231, #210 ) ;
#13 = ADVANCED_FACE ( 'NONE', ( #252 ), #23, .F. ) ;
#14 = DIRECTION ( 'NONE',  ( 0.000000000000000000, 0.000000000000000000, 1.000000000000000000 ) ) ;
#15 = DIRECTION ( 'NONE',  ( 1.000000000000000000, 0.000000000000000000, 0.000000000000000000 ) ) ;
#16 = DATE_AND_TIME ( #45, #49 ) ;
#17 = CARTESIAN_POINT ( 'NONE',  ( -1.614212418857619014, 0.000000000000000000, 0.000000000000000000 ) ) ;
#18 = PERSON_AND_ORGANIZATION ( #329, #238 ) ;
#19 = DATE_TIME_ROLE ( 'creation_date' ) ;
#20 = APPROVAL_PERSON_ORGANIZATION ( #245, #54, #248 ) ;
#21 = COORDINATED_UNIVERSAL_TIME_OFFSET ( 8, 0, .AHEAD. ) ;
#22 = EDGE_CURVE ( 'NONE', #132, #331, #333, .T. ) ;
#23 = CYLINDRICAL_SURFACE ( 'NONE', #12, 10.00000000000000000 ) ;
#24 = AXIS2_PLACEMENT_3D ( 'NONE', #323, #293, #68 ) ;
#25 = CARTESIAN_POINT ( 'NONE',  ( -1.614212418857619014, 0.000000000000000000, 0.000000000000000000 ) ) ;
#26 = ORIENTED_EDGE ( 'NONE', *, *, #287, .F. ) ;
#27 = VERTEX_POINT ( 'NONE', #62 ) ;
#28 = DIRECTION ( 'NONE',  ( -1.000000000000000000, -0.000000000000000000, -0.000000000000000000 ) ) ;
#29 = EDGE_CURVE ( 'NONE', #334, #27, #190, .T. ) ;
#30 = CYLINDRICAL_SURFACE ( 'NONE', #119, 12.69999999999999929 ) ;
#31 = CARTESIAN_POINT ( 'NONE',  ( -1.614212418857619014, 1.224646799147353256E-15, -10.00000000000000000 ) ) ;
#32 = DIRECTION ( 'NONE',  ( 0.000000000000000000, 0.000000000000000000, 1.000000000000000000 ) ) ;
#33 = AXIS2_PLACEMENT_3D ( 'NONE', #292, #161, #310 ) ;
#34 = EDGE_CURVE ( 'NONE', #78, #79, #41, .T. ) ;
#35 = CARTESIAN_POINT ( 'NONE',  ( -3.000000000000000000, 10.00000000000000000, 0.000000000000000000 ) ) ;
#36 = ADVANCED_FACE ( 'NONE', ( #234, #263 ), #5, .F. ) ;
#37 = PLANE ( 'NONE',  #106 ) ;
#38 = LINE ( 'NONE', #291, #290 ) ;
#39 = FACE_OUTER_BOUND ( 'NONE', #50, .T. ) ;
#40 = PERSON_AND_ORGANIZATION ( #329, #238 ) ;
#41 = CIRCLE ( 'NONE', #209, 12.69999999999999929 ) ;
#42 = CC_DESIGN_PERSON_AND_ORGANIZATION_ASSIGNMENT ( #149, #198, ( #277 ) ) ;
#43 =( LENGTH_UNIT ( ) NAMED_UNIT ( * ) SI_UNIT ( .MILLI., .METRE. ) );
#44 = DIRECTION ( 'NONE',  ( -1.000000000000000000, -0.000000000000000000, -0.000000000000000000 ) ) ;
#45 = CALENDAR_DATE ( 2020, 23, 12 ) ;
#46 = UNCERTAINTY_MEASURE_WITH_UNIT (LENGTH_MEASURE( 1.000000000000000082E-05 ), #43, 'distance_accuracy_value', 'NONE');
#47 = PERSON_AND_ORGANIZATION ( #329, #238 ) ;
#48 = APPROVAL_STATUS ( 'not_yet_approved' ) ;
#49 = LOCAL_TIME ( 9, 25, 22.00000000000000000, #10 ) ;
#50 = EDGE_LOOP ( 'NONE', ( #304, #305, #233, #205 ) ) ;
#51 = ADVANCED_FACE ( 'NONE', ( #288 ), #30, .T. ) ;
#52 = ORIENTED_EDGE ( 'NONE', *, *, #308, .F. ) ;
#53 = PRODUCT_DEFINITION_FORMATION_WITH_SPECIFIED_SOURCE ( 'ANY', '', #196, .NOT_KNOWN. ) ;
#54 = APPROVAL ( #274, 'UNSPECIFIED' ) ;
#55 = ORIENTED_EDGE ( 'NONE', *, *, #116, .F. ) ;
#56 = EDGE_LOOP ( 'NONE', ( #204, #278, #254, #280 ) ) ;
#57 = MANIFOLD_SOLID_BREP ( 'Ðý×', #102 ) ;
#58 = EDGE_LOOP ( 'NONE', ( #82, #182 ) ) ;
#59 = LOCAL_TIME ( 9, 25, 22.00000000000000000, #175 ) ;
#60 = CARTESIAN_POINT ( 'NONE',  ( -3.000000000000000000, 0.000000000000000000, 0.000000000000000000 ) ) ;
#61 = DIRECTION ( 'NONE',  ( 0.000000000000000000, 0.000000000000000000, 1.000000000000000000 ) ) ;
#62 = CARTESIAN_POINT ( 'NONE',  ( -3.000000000000000444, 0.000000000000000000, 10.00000000000000000 ) ) ;
#63 = FACE_BOUND ( 'NONE', #229, .T. ) ;
#64 = AXIS2_PLACEMENT_3D ( 'NONE', #66, #28, #2 ) ;
#65 = CARTESIAN_POINT ( 'NONE',  ( -2.500000000000000444, 1.224646799147353256E-15, -10.00000000000000000 ) ) ;
#66 = CARTESIAN_POINT ( 'NONE',  ( 3.000000000000000000, 0.000000000000000000, 0.000000000000000000 ) ) ;
#67 = DIRECTION ( 'NONE',  ( -1.000000000000000000, -0.000000000000000000, -0.000000000000000000 ) ) ;
#68 = DIRECTION ( 'NONE',  ( -0.000000000000000000, 0.000000000000000000, 1.000000000000000000 ) ) ;
#69 = MECHANICAL_CONTEXT ( 'NONE', #267, 'mechanical' ) ;
#70 = EDGE_CURVE ( 'NONE', #331, #129, #112, .T. ) ;
#71 = DIRECTION ( 'NONE',  ( -1.000000000000000000, -0.000000000000000000, -0.000000000000000000 ) ) ;
#72 = AXIS2_PLACEMENT_3D ( 'NONE', #207, #84, #208 ) ;
#73 = APPLICATION_PROTOCOL_DEFINITION ( 'international standard', 'config_control_design', 1994, #138 ) ;
#74 = EDGE_CURVE ( 'NONE', #133, #129, #158, .T. ) ;
#75 = ADVANCED_BREP_SHAPE_REPRESENTATION ( 'Q-QZWP-R4-20-248-M', ( #57, #92 ), #151 ) ;
#76 = PERSON_AND_ORGANIZATION_ROLE ( 'classification_officer' ) ;
#77 = APPROVAL_PERSON_ORGANIZATION ( #197, #203, #192 ) ;
#78 = VERTEX_POINT ( 'NONE', #114 ) ;
#79 = VERTEX_POINT ( 'NONE', #211 ) ;
#80 = ORIENTED_EDGE ( 'NONE', *, *, #74, .F. ) ;
#81 = ORIENTED_EDGE ( 'NONE', *, *, #294, .T. ) ;
#82 = ORIENTED_EDGE ( 'NONE', *, *, #22, .T. ) ;
#83 = EDGE_CURVE ( 'NONE', #79, #78, #328, .T. ) ;
#84 = DIRECTION ( 'NONE',  ( -1.000000000000000000, -0.000000000000000000, -0.000000000000000000 ) ) ;
#85 = AXIS2_PLACEMENT_3D ( 'NONE', #193, #145, #93 ) ;
#86 = CARTESIAN_POINT ( 'NONE',  ( 3.000000000000000000, 0.000000000000000000, 12.69999999999999929 ) ) ;
#87 = VECTOR ( 'NONE', #135, 1000.000000000000000 ) ;
#88 = DIRECTION ( 'NONE',  ( 0.000000000000000000, 0.000000000000000000, 1.000000000000000000 ) ) ;
#89 = ADVANCED_FACE ( 'NONE', ( #63, #110 ), #261, .F. ) ;
#90 = DIRECTION ( 'NONE',  ( -0.000000000000000000, 0.000000000000000000, 1.000000000000000000 ) ) ;
#91 = FACE_OUTER_BOUND ( 'NONE', #303, .T. ) ;
#92 = AXIS2_PLACEMENT_3D ( 'NONE', #126, #273, #330 ) ;
#93 = DIRECTION ( 'NONE',  ( 0.000000000000000000, 0.000000000000000000, 1.000000000000000000 ) ) ;
#94 = APPROVAL_ROLE ( '' ) ;
#95 = CARTESIAN_POINT ( 'NONE',  ( -3.000000000000000444, 0.000000000000000000, 0.000000000000000000 ) ) ;
#96 = APPROVAL_DATE_TIME ( #326, #54 ) ;
#97 = VECTOR ( 'NONE', #311, 1000.000000000000000 ) ;
#98 = EDGE_CURVE ( 'NONE', #334, #276, #181, .T. ) ;
#99 = APPLICATION_PROTOCOL_DEFINITION ( 'international standard', 'config_control_design', 1994, #267 ) ;
#100 = ORIENTED_EDGE ( 'NONE', *, *, #177, .T. ) ;
#101 = VECTOR ( 'NONE', #44, 1000.000000000000000 ) ;
#102 = CLOSED_SHELL ( 'NONE', ( #51, #13, #225, #259, #168, #235, #89, #108, #36, #206 ) ) ;
#103 = EDGE_LOOP ( 'NONE', ( #178, #309 ) ) ;
#104 = VERTEX_POINT ( 'NONE', #317 ) ;
#105 = EDGE_LOOP ( 'NONE', ( #80, #283 ) ) ;
#106 = AXIS2_PLACEMENT_3D ( 'NONE', #270, #15, #247 ) ;
#107 = ORIENTED_EDGE ( 'NONE', *, *, #269, .T. ) ;
#108 = ADVANCED_FACE ( 'NONE', ( #91 ), #136, .T. ) ;
#109 = DIRECTION ( 'NONE',  ( 1.000000000000000000, 0.000000000000000000, 0.000000000000000000 ) ) ;
#110 = FACE_OUTER_BOUND ( 'NONE', #103, .T. ) ;
#111 = AXIS2_PLACEMENT_3D ( 'NONE', #246, #322, #142 ) ;
#112 = LINE ( 'NONE', #31, #188 ) ;
#113 = CC_DESIGN_DATE_AND_TIME_ASSIGNMENT ( #146, #120, ( #163 ) ) ;
#114 = CARTESIAN_POINT ( 'NONE',  ( -3.000000000000000000, 0.000000000000000000, 12.69999999999999929 ) ) ;
#115 = DIRECTION ( 'NONE',  ( 0.000000000000000000, 0.000000000000000000, -1.000000000000000000 ) ) ;
#116 = EDGE_CURVE ( 'NONE', #201, #156, #228, .T. ) ;
#117 = DIRECTION ( 'NONE',  ( 0.000000000000000000, 0.000000000000000000, 1.000000000000000000 ) ) ;
#118 = PLANE ( 'NONE',  #24 ) ;
#119 = AXIS2_PLACEMENT_3D ( 'NONE', #264, #164, #32 ) ;
#120 = DATE_TIME_ROLE ( 'classification_date' ) ;
#121 = EDGE_CURVE ( 'NONE', #331, #132, #279, .T. ) ;
#122 = CARTESIAN_POINT ( 'NONE',  ( -2.500000000000000444, 0.000000000000000000, 10.00000000000000000 ) ) ;
#123 = FACE_OUTER_BOUND ( 'NONE', #255, .T. ) ;
#124 = APPROVAL_DATE_TIME ( #16, #203 ) ;
#125 = DIRECTION ( 'NONE',  ( -1.000000000000000000, -0.000000000000000000, -0.000000000000000000 ) ) ;
#126 = CARTESIAN_POINT ( 'NONE',  ( 0.000000000000000000, 0.000000000000000000, 0.000000000000000000 ) ) ;
#127 = PERSON_AND_ORGANIZATION ( #329, #238 ) ;
#128 = ORIENTED_EDGE ( 'NONE', *, *, #152, .F. ) ;
#129 = VERTEX_POINT ( 'NONE', #236 ) ;
#130 = LOCAL_TIME ( 9, 25, 22.00000000000000000, #195 ) ;
#131 = ORIENTED_EDGE ( 'NONE', *, *, #294, .F. ) ;
#132 = VERTEX_POINT ( 'NONE', #184 ) ;
#133 = VERTEX_POINT ( 'NONE', #284 ) ;
#134 = VECTOR ( 'NONE', #241, 1000.000000000000000 ) ;
#135 = DIRECTION ( 'NONE',  ( -1.000000000000000000, -0.000000000000000000, -0.000000000000000000 ) ) ;
#136 = CYLINDRICAL_SURFACE ( 'NONE', #33, 12.69999999999999929 ) ;
#137 = CARTESIAN_POINT ( 'NONE',  ( -1.614212418857619014, 0.000000000000000000, 10.00000000000000000 ) ) ;
#138 = APPLICATION_CONTEXT ( 'configuration controlled 3d designs of mechanical parts and assemblies' ) ;
#139 = AXIS2_PLACEMENT_3D ( 'NONE', #162, #212, #90 ) ;
#140 = DIRECTION ( 'NONE',  ( -1.000000000000000000, -0.000000000000000000, -0.000000000000000000 ) ) ;
#141 = DIRECTION ( 'NONE',  ( 0.000000000000000000, 0.000000000000000000, -1.000000000000000000 ) ) ;
#142 = DIRECTION ( 'NONE',  ( 0.000000000000000000, 0.000000000000000000, 1.000000000000000000 ) ) ;
#143 = LINE ( 'NONE', #215, #101 ) ;
#144 = DIRECTION ( 'NONE',  ( -1.000000000000000000, -0.000000000000000000, -0.000000000000000000 ) ) ;
#145 = DIRECTION ( 'NONE',  ( -1.000000000000000000, -0.000000000000000000, -0.000000000000000000 ) ) ;
#146 = DATE_AND_TIME ( #251, #59 ) ;
#147 = DIRECTION ( 'NONE',  ( 0.000000000000000000, 0.000000000000000000, 1.000000000000000000 ) ) ;
#148 = PRODUCT_RELATED_PRODUCT_CATEGORY ( 'detail', '', ( #196 ) ) ;
#149 = PERSON_AND_ORGANIZATION ( #329, #238 ) ;
#150 = APPROVAL_DATE_TIME ( #242, #219 ) ;
#151 =( GEOMETRIC_REPRESENTATION_CONTEXT ( 3 ) GLOBAL_UNCERTAINTY_ASSIGNED_CONTEXT ( ( #46 ) ) GLOBAL_UNIT_ASSIGNED_CONTEXT ( ( #43, #319, #217 ) ) REPRESENTATION_CONTEXT ( 'NONE', 'WORKASPACE' ) );
#152 = EDGE_CURVE ( 'NONE', #132, #133, #159, .T. ) ;
#153 = ORIENTED_EDGE ( 'NONE', *, *, #83, .F. ) ;
#154 = ORIENTED_EDGE ( 'NONE', *, *, #70, .T. ) ;
#155 = ORIENTED_EDGE ( 'NONE', *, *, #160, .T. ) ;
#156 = VERTEX_POINT ( 'NONE', #86 ) ;
#157 = ORIENTED_EDGE ( 'NONE', *, *, #34, .F. ) ;
#158 = CIRCLE ( 'NONE', #11, 10.00000000000000000 ) ;
#159 = LINE ( 'NONE', #4, #97 ) ;
#160 = EDGE_CURVE ( 'NONE', #129, #133, #253, .T. ) ;
#161 = DIRECTION ( 'NONE',  ( -1.000000000000000000, -0.000000000000000000, -0.000000000000000000 ) ) ;
#162 = CARTESIAN_POINT ( 'NONE',  ( 2.999999999999999112, 12.69999999999999929, 0.000000000000000000 ) ) ;
#163 = SECURITY_CLASSIFICATION ( '', '', #194 ) ;
#164 = DIRECTION ( 'NONE',  ( -1.000000000000000000, -0.000000000000000000, -0.000000000000000000 ) ) ;
#165 = CARTESIAN_POINT ( 'NONE',  ( -2.500000000000000444, 0.000000000000000000, 0.000000000000000000 ) ) ;
#166 = DIRECTION ( 'NONE',  ( -1.000000000000000000, -0.000000000000000000, -0.000000000000000000 ) ) ;
#167 = DIRECTION ( 'NONE',  ( 0.000000000000000000, 0.000000000000000000, 1.000000000000000000 ) ) ;
#168 = ADVANCED_FACE ( 'NONE', ( #244 ), #221, .F. ) ;
#169 = LOCAL_TIME ( 9, 25, 22.00000000000000000, #21 ) ;
#170 = CYLINDRICAL_SURFACE ( 'NONE', #243, 10.00000000000000000 ) ;
#171 = CC_DESIGN_SECURITY_CLASSIFICATION ( #163, ( #53 ) ) ;
#172 = PERSON_AND_ORGANIZATION_ROLE ( 'design_owner' ) ;
#173 = CC_DESIGN_PERSON_AND_ORGANIZATION_ASSIGNMENT ( #40, #76, ( #163 ) ) ;
#174 = CALENDAR_DATE ( 2020, 23, 12 ) ;
#175 = COORDINATED_UNIVERSAL_TIME_OFFSET ( 8, 0, .AHEAD. ) ;
#176 = AXIS2_PLACEMENT_3D ( 'NONE', #17, #71, #147 ) ;
#177 = EDGE_CURVE ( 'NONE', #156, #78, #143, .T. ) ;
#178 = ORIENTED_EDGE ( 'NONE', *, *, #34, .T. ) ;
#179 = ORIENTED_EDGE ( 'NONE', *, *, #98, .F. ) ;
#180 = ORIENTED_EDGE ( 'NONE', *, *, #116, .T. ) ;
#181 = CIRCLE ( 'NONE', #312, 10.00000000000000000 ) ;
#182 = ORIENTED_EDGE ( 'NONE', *, *, #121, .T. ) ;
#183 = ORIENTED_EDGE ( 'NONE', *, *, #98, .T. ) ;
#184 = CARTESIAN_POINT ( 'NONE',  ( 2.999999999999999112, 0.000000000000000000, 10.00000000000000000 ) ) ;
#185 = CARTESIAN_POINT ( 'NONE',  ( 2.500000000000000888, 0.000000000000000000, 0.000000000000000000 ) ) ;
#186 = DIRECTION ( 'NONE',  ( -1.000000000000000000, -0.000000000000000000, -0.000000000000000000 ) ) ;
#187 = DIRECTION ( 'NONE',  ( -1.000000000000000000, -0.000000000000000000, -0.000000000000000000 ) ) ;
#188 = VECTOR ( 'NONE', #140, 1000.000000000000000 ) ;
#189 = CARTESIAN_POINT ( 'NONE',  ( -3.000000000000000444, 0.000000000000000000, 0.000000000000000000 ) ) ;
#190 = LINE ( 'NONE', #137, #87 ) ;
#191 = FACE_OUTER_BOUND ( 'NONE', #105, .T. ) ;
#192 = APPROVAL_ROLE ( '' ) ;
#193 = CARTESIAN_POINT ( 'NONE',  ( -1.614212418857619014, 0.000000000000000000, 0.000000000000000000 ) ) ;
#194 = SECURITY_CLASSIFICATION_LEVEL ( 'unclassified' ) ;
#195 = COORDINATED_UNIVERSAL_TIME_OFFSET ( 8, 0, .AHEAD. ) ;
#196 = PRODUCT ( 'Q-QZWP-R4-20-248-M', 'Q-QZWP-R4-20-248-M', '', ( #69 ) ) ;
#197 = PERSON_AND_ORGANIZATION ( #329, #238 ) ;
#198 = PERSON_AND_ORGANIZATION_ROLE ( 'creator' ) ;
#199 = CC_DESIGN_APPROVAL ( #203, ( #53 ) ) ;
#200 = EDGE_LOOP ( 'NONE', ( #327, #81, #157, #1 ) ) ;
#201 = VERTEX_POINT ( 'NONE', #272 ) ;
#202 = ORIENTED_EDGE ( 'NONE', *, *, #282, .F. ) ;
#203 = APPROVAL ( #301, 'UNSPECIFIED' ) ;
#204 = ORIENTED_EDGE ( 'NONE', *, *, #70, .F. ) ;
#205 = ORIENTED_EDGE ( 'NONE', *, *, #287, .T. ) ;
#206 = ADVANCED_FACE ( 'NONE', ( #325 ), #37, .F. ) ;
#207 = CARTESIAN_POINT ( 'NONE',  ( 2.999999999999999112, 0.000000000000000000, 0.000000000000000000 ) ) ;
#208 = DIRECTION ( 'NONE',  ( 0.000000000000000000, 0.000000000000000000, 1.000000000000000000 ) ) ;
#209 = AXIS2_PLACEMENT_3D ( 'NONE', #60, #166, #315 ) ;
#210 = DIRECTION ( 'NONE',  ( 0.000000000000000000, 0.000000000000000000, 1.000000000000000000 ) ) ;
#211 = CARTESIAN_POINT ( 'NONE',  ( -3.000000000000000000, 1.555301434917138433E-15, -12.69999999999999929 ) ) ;
#212 = DIRECTION ( 'NONE',  ( -1.000000000000000000, 0.000000000000000000, -0.000000000000000000 ) ) ;
#213 = CIRCLE ( 'NONE', #111, 12.69999999999999929 ) ;
#214 = CARTESIAN_POINT ( 'NONE',  ( 2.999999999999999112, 1.224646799147353256E-15, -10.00000000000000000 ) ) ;
#215 = CARTESIAN_POINT ( 'NONE',  ( -1.614212418857619014, 0.000000000000000000, 12.69999999999999929 ) ) ;
#216 = COORDINATED_UNIVERSAL_TIME_OFFSET ( 8, 0, .AHEAD. ) ;
#217 =( NAMED_UNIT ( * ) SI_UNIT ( $, .STERADIAN. ) SOLID_ANGLE_UNIT ( ) );
#218 = CARTESIAN_POINT ( 'NONE',  ( -1.614212418857619014, 1.224646799147353256E-15, -10.00000000000000000 ) ) ;
#219 = APPROVAL ( #48, 'UNSPECIFIED' ) ;
#220 = CALENDAR_DATE ( 2020, 23, 12 ) ;
#221 = CYLINDRICAL_SURFACE ( 'NONE', #176, 10.00000000000000000 ) ;
#222 = CALENDAR_DATE ( 2020, 23, 12 ) ;
#223 = AXIS2_PLACEMENT_3D ( 'NONE', #185, #286, #61 ) ;
#224 = PRODUCT_DEFINITION_SHAPE ( 'NONE', 'NONE',  #277 ) ;
#225 = ADVANCED_FACE ( 'NONE', ( #123 ), #170, .F. ) ;
#226 = EDGE_LOOP ( 'NONE', ( #183, #232, #107, #307 ) ) ;
#227 = EDGE_CURVE ( 'NONE', #276, #104, #268, .T. ) ;
#228 = CIRCLE ( 'NONE', #64, 12.69999999999999929 ) ;
#229 = EDGE_LOOP ( 'NONE', ( #26, #256 ) ) ;
#230 = CC_DESIGN_PERSON_AND_ORGANIZATION_ASSIGNMENT ( #127, #299, ( #53 ) ) ;
#231 = DIRECTION ( 'NONE',  ( -1.000000000000000000, -0.000000000000000000, -0.000000000000000000 ) ) ;
#232 = ORIENTED_EDGE ( 'NONE', *, *, #227, .T. ) ;
#233 = ORIENTED_EDGE ( 'NONE', *, *, #29, .T. ) ;
#234 = FACE_OUTER_BOUND ( 'NONE', #335, .T. ) ;
#235 = ADVANCED_FACE ( 'NONE', ( #39 ), #9, .F. ) ;
#236 = CARTESIAN_POINT ( 'NONE',  ( 2.500000000000000888, 1.224646799147353256E-15, -10.00000000000000000 ) ) ;
#237 = CARTESIAN_POINT ( 'NONE',  ( 2.999999999999999112, 0.000000000000000000, 0.000000000000000000 ) ) ;
#238 = ORGANIZATION ( 'UNSPECIFIED', 'UNSPECIFIED', '' ) ;
#239 = DIRECTION ( 'NONE',  ( -1.000000000000000000, -0.000000000000000000, -0.000000000000000000 ) ) ;
#240 = CARTESIAN_POINT ( 'NONE',  ( -2.500000000000000444, 0.000000000000000000, 0.000000000000000000 ) ) ;
#241 = DIRECTION ( 'NONE',  ( -1.000000000000000000, -0.000000000000000000, -0.000000000000000000 ) ) ;
#242 = DATE_AND_TIME ( #220, #130 ) ;
#243 = AXIS2_PLACEMENT_3D ( 'NONE', #320, #125, #167 ) ;
#244 = FACE_OUTER_BOUND ( 'NONE', #56, .T. ) ;
#245 = PERSON_AND_ORGANIZATION ( #329, #238 ) ;
#246 = CARTESIAN_POINT ( 'NONE',  ( 3.000000000000000000, 0.000000000000000000, 0.000000000000000000 ) ) ;
#247 = DIRECTION ( 'NONE',  ( 0.000000000000000000, 0.000000000000000000, -1.000000000000000000 ) ) ;
#248 = APPROVAL_ROLE ( '' ) ;
#249 = DATE_AND_TIME ( #174, #302 ) ;
#250 = AXIS2_PLACEMENT_3D ( 'NONE', #95, #296, #14 ) ;
#251 = CALENDAR_DATE ( 2020, 23, 12 ) ;
#252 = FACE_OUTER_BOUND ( 'NONE', #226, .T. ) ;
#253 = CIRCLE ( 'NONE', #223, 10.00000000000000000 ) ;
#254 = ORIENTED_EDGE ( 'NONE', *, *, #152, .T. ) ;
#255 = EDGE_LOOP ( 'NONE', ( #281, #154, #155, #128 ) ) ;
#256 = ORIENTED_EDGE ( 'NONE', *, *, #269, .F. ) ;
#257 = EDGE_LOOP ( 'NONE', ( #179, #52 ) ) ;
#258 = AXIS2_PLACEMENT_3D ( 'NONE', #35, #109, #141 ) ;
#259 = ADVANCED_FACE ( 'NONE', ( #191 ), #118, .F. ) ;
#260 = AXIS2_PLACEMENT_3D ( 'NONE', #237, #186, #88 ) ;
#261 = PLANE ( 'NONE',  #258 ) ;
#262 = DESIGN_CONTEXT ( 'detailed design', #138, 'design' ) ;
#263 = FACE_BOUND ( 'NONE', #58, .T. ) ;
#264 = CARTESIAN_POINT ( 'NONE',  ( -1.614212418857619014, 0.000000000000000000, 0.000000000000000000 ) ) ;
#265 = AXIS2_PLACEMENT_3D ( 'NONE', #165, #295, #271 ) ;
#266 = CARTESIAN_POINT ( 'NONE',  ( 2.500000000000000888, 0.000000000000000000, 0.000000000000000000 ) ) ;
#267 = APPLICATION_CONTEXT ( 'configuration controlled 3d designs of mechanical parts and assemblies' ) ;
#268 = LINE ( 'NONE', #218, #134 ) ;
#269 = EDGE_CURVE ( 'NONE', #104, #27, #6, .T. ) ;
#270 = CARTESIAN_POINT ( 'NONE',  ( -2.500000000000000444, 10.00000000000000000, 0.000000000000000000 ) ) ;
#271 = DIRECTION ( 'NONE',  ( 0.000000000000000000, 0.000000000000000000, -1.000000000000000000 ) ) ;
#272 = CARTESIAN_POINT ( 'NONE',  ( 3.000000000000000000, 1.555301434917138433E-15, -12.69999999999999929 ) ) ;
#273 = DIRECTION ( 'NONE',  ( 0.000000000000000000, 0.000000000000000000, 1.000000000000000000 ) ) ;
#274 = APPROVAL_STATUS ( 'not_yet_approved' ) ;
#275 = AXIS2_PLACEMENT_3D ( 'NONE', #316, #187, #289 ) ;
#276 = VERTEX_POINT ( 'NONE', #65 ) ;
#277 = PRODUCT_DEFINITION ( 'UNKNOWN', '', #53, #262 ) ;
#278 = ORIENTED_EDGE ( 'NONE', *, *, #22, .F. ) ;
#279 = CIRCLE ( 'NONE', #72, 10.00000000000000000 ) ;
#280 = ORIENTED_EDGE ( 'NONE', *, *, #74, .T. ) ;
#281 = ORIENTED_EDGE ( 'NONE', *, *, #121, .F. ) ;
#282 = EDGE_CURVE ( 'NONE', #156, #201, #213, .T. ) ;
#283 = ORIENTED_EDGE ( 'NONE', *, *, #160, .F. ) ;
#284 = CARTESIAN_POINT ( 'NONE',  ( 2.500000000000000888, 0.000000000000000000, 10.00000000000000000 ) ) ;
#285 = CIRCLE ( 'NONE', #298, 10.00000000000000000 ) ;
#286 = DIRECTION ( 'NONE',  ( -1.000000000000000000, -0.000000000000000000, -0.000000000000000000 ) ) ;
#287 = EDGE_CURVE ( 'NONE', #27, #104, #285, .T. ) ;
#288 = FACE_OUTER_BOUND ( 'NONE', #200, .T. ) ;
#289 = DIRECTION ( 'NONE',  ( 0.000000000000000000, 0.000000000000000000, 1.000000000000000000 ) ) ;
#290 = VECTOR ( 'NONE', #144, 1000.000000000000000 ) ;
#291 = CARTESIAN_POINT ( 'NONE',  ( -1.614212418857619014, 1.555301434917138433E-15, -12.69999999999999929 ) ) ;
#292 = CARTESIAN_POINT ( 'NONE',  ( -1.614212418857619014, 0.000000000000000000, 0.000000000000000000 ) ) ;
#293 = DIRECTION ( 'NONE',  ( -1.000000000000000000, 0.000000000000000000, -0.000000000000000000 ) ) ;
#294 = EDGE_CURVE ( 'NONE', #201, #79, #38, .T. ) ;
#295 = DIRECTION ( 'NONE',  ( 1.000000000000000000, 0.000000000000000000, 0.000000000000000000 ) ) ;
#296 = DIRECTION ( 'NONE',  ( -1.000000000000000000, -0.000000000000000000, -0.000000000000000000 ) ) ;
#297 = SHAPE_DEFINITION_REPRESENTATION ( #224, #75 ) ;
#298 = AXIS2_PLACEMENT_3D ( 'NONE', #189, #67, #117 ) ;
#299 = PERSON_AND_ORGANIZATION_ROLE ( 'creator' ) ;
#300 = CC_DESIGN_PERSON_AND_ORGANIZATION_ASSIGNMENT ( #321, #324, ( #53 ) ) ;
#301 = APPROVAL_STATUS ( 'not_yet_approved' ) ;
#302 = LOCAL_TIME ( 9, 25, 22.00000000000000000, #216 ) ;
#303 = EDGE_LOOP ( 'NONE', ( #131, #180, #100, #153 ) ) ;
#304 = ORIENTED_EDGE ( 'NONE', *, *, #227, .F. ) ;
#305 = ORIENTED_EDGE ( 'NONE', *, *, #308, .T. ) ;
#306 = APPROVAL_PERSON_ORGANIZATION ( #47, #219, #94 ) ;
#307 = ORIENTED_EDGE ( 'NONE', *, *, #29, .F. ) ;
#308 = EDGE_CURVE ( 'NONE', #276, #334, #332, .T. ) ;
#309 = ORIENTED_EDGE ( 'NONE', *, *, #83, .T. ) ;
#310 = DIRECTION ( 'NONE',  ( 0.000000000000000000, 0.000000000000000000, 1.000000000000000000 ) ) ;
#311 = DIRECTION ( 'NONE',  ( -1.000000000000000000, -0.000000000000000000, -0.000000000000000000 ) ) ;
#312 = AXIS2_PLACEMENT_3D ( 'NONE', #240, #8, #115 ) ;
#313 = CC_DESIGN_APPROVAL ( #54, ( #163 ) ) ;
#314 = CC_DESIGN_DATE_AND_TIME_ASSIGNMENT ( #249, #19, ( #277 ) ) ;
#315 = DIRECTION ( 'NONE',  ( 0.000000000000000000, 0.000000000000000000, 1.000000000000000000 ) ) ;
#316 = CARTESIAN_POINT ( 'NONE',  ( -3.000000000000000000, 0.000000000000000000, 0.000000000000000000 ) ) ;
#317 = CARTESIAN_POINT ( 'NONE',  ( -3.000000000000000444, 1.224646799147353256E-15, -10.00000000000000000 ) ) ;
#318 = CC_DESIGN_APPROVAL ( #219, ( #277 ) ) ;
#319 =( NAMED_UNIT ( * ) PLANE_ANGLE_UNIT ( ) SI_UNIT ( $, .RADIAN. ) );
#320 = CARTESIAN_POINT ( 'NONE',  ( -1.614212418857619014, 0.000000000000000000, 0.000000000000000000 ) ) ;
#321 = PERSON_AND_ORGANIZATION ( #329, #238 ) ;
#322 = DIRECTION ( 'NONE',  ( -1.000000000000000000, -0.000000000000000000, -0.000000000000000000 ) ) ;
#323 = CARTESIAN_POINT ( 'NONE',  ( 2.500000000000000444, 10.00000000000000000, 0.000000000000000000 ) ) ;
#324 = PERSON_AND_ORGANIZATION_ROLE ( 'design_supplier' ) ;
#325 = FACE_OUTER_BOUND ( 'NONE', #257, .T. ) ;
#326 = DATE_AND_TIME ( #222, #169 ) ;
#327 = ORIENTED_EDGE ( 'NONE', *, *, #282, .T. ) ;
#328 = CIRCLE ( 'NONE', #275, 12.69999999999999929 ) ;
#329 = PERSON ( 'UNSPECIFIED', 'UNSPECIFIED', 'UNSPECIFIED', ('UNSPECIFIED'), ('UNSPECIFIED'), ('UNSPECIFIED') ) ;
#330 = DIRECTION ( 'NONE',  ( 1.000000000000000000, 0.000000000000000000, 0.000000000000000000 ) ) ;
#331 = VERTEX_POINT ( 'NONE', #214 ) ;
#332 = CIRCLE ( 'NONE', #265, 10.00000000000000000 ) ;
#333 = CIRCLE ( 'NONE', #260, 10.00000000000000000 ) ;
#334 = VERTEX_POINT ( 'NONE', #122 ) ;
#335 = EDGE_LOOP ( 'NONE', ( #202, #55 ) ) ;
ENDSEC;
END-ISO-10303-21;
